ISO-10303-21;
HEADER;
/* Generated by software containing ST-Developer
 * from STEP Tools, Inc. (www.steptools.com) 
 */

FILE_DESCRIPTION(
/* description */ (''),
/* implementation_level */ '2;1');

FILE_NAME(
/* name */ '700108.stp',
/* time_stamp */ '2024-11-21T09:53:28+01:00',
/* author */ ('mbs'),
/* organization */ (''),
/* preprocessor_version */ 'ST-DEVELOPER v20',
/* originating_system */ 'Autodesk Inventor 2024',
/* authorisation */ '');

FILE_SCHEMA (('AUTOMOTIVE_DESIGN { 1 0 10303 214 3 1 1 }'));
ENDSEC;

DATA;
#10=MECHANICAL_DESIGN_GEOMETRIC_PRESENTATION_REPRESENTATION('',(#254,#255,
#256,#257,#258,#259,#260,#261,#262,#263,#264,#265,#266,#267,#268,#269,#270,
#271),#578);
#11=SHAPE_REPRESENTATION_RELATIONSHIP('SRR','None',#585,#12);
#12=ADVANCED_BREP_SHAPE_REPRESENTATION('',(#13),#577);
#13=MANIFOLD_SOLID_BREP('Solid1',#289);
#14=CONICAL_SURFACE('',#334,6.25,0.785398163397447);
#15=CONICAL_SURFACE('',#348,6.05,0.399515493999374);
#16=CONICAL_SURFACE('',#360,4.90000000000001,0.785398163397448);
#17=FACE_BOUND('',#52,.T.);
#18=(
BOUNDED_SURFACE()
B_SPLINE_SURFACE(2,2,((#483,#484,#485,#486,#487,#488,#489,#490,#491),(#492,
#493,#494,#495,#496,#497,#498,#499,#500),(#501,#502,#503,#504,#505,#506,
#507,#508,#509)),.UNSPECIFIED.,.F.,.T.,.F.)
B_SPLINE_SURFACE_WITH_KNOTS((3,3),(3,2,2,2,3),(-0.742959683331892,0.392341387104634),
(-3.14159265358979,-1.5707963267949,0.,1.5707963267949,3.14159265358979),
 .UNSPECIFIED.)
GEOMETRIC_REPRESENTATION_ITEM()
RATIONAL_B_SPLINE_SURFACE(((1.,0.707106781186548,1.,0.707106781186548,1.,
0.707106781186548,1.,0.707106781186548,1.),(0.843166496850241,0.596208747592111,
0.843166496850241,0.596208747592111,0.843166496850241,0.596208747592111,
0.843166496850241,0.596208747592111,0.843166496850241),(1.,0.707106781186548,
1.,0.707106781186548,1.,0.707106781186548,1.,0.707106781186548,1.)))
REPRESENTATION_ITEM('')
SURFACE()
);
#19=TOROIDAL_SURFACE('',#318,5.90399680510978,0.2);
#20=TOROIDAL_SURFACE('',#323,6.541655614481,0.2);
#21=TOROIDAL_SURFACE('',#330,5.70000000000001,0.2);
#22=TOROIDAL_SURFACE('',#337,6.8,0.2);
#23=TOROIDAL_SURFACE('',#344,6.8,0.2);
#24=TOROIDAL_SURFACE('',#351,5.3,0.2);
#25=TOROIDAL_SURFACE('',#358,5.3,0.2);
#26=PLANE('',#316);
#27=PLANE('',#326);
#28=PLANE('',#328);
#29=FACE_OUTER_BOUND('',#46,.T.);
#30=FACE_OUTER_BOUND('',#47,.T.);
#31=FACE_OUTER_BOUND('',#48,.T.);
#32=FACE_OUTER_BOUND('',#49,.T.);
#33=FACE_OUTER_BOUND('',#50,.T.);
#34=FACE_OUTER_BOUND('',#51,.T.);
#35=FACE_OUTER_BOUND('',#53,.T.);
#36=FACE_OUTER_BOUND('',#54,.T.);
#37=FACE_OUTER_BOUND('',#55,.T.);
#38=FACE_OUTER_BOUND('',#56,.T.);
#39=FACE_OUTER_BOUND('',#57,.T.);
#40=FACE_OUTER_BOUND('',#58,.T.);
#41=FACE_OUTER_BOUND('',#59,.T.);
#42=FACE_OUTER_BOUND('',#60,.T.);
#43=FACE_OUTER_BOUND('',#61,.T.);
#44=FACE_OUTER_BOUND('',#62,.T.);
#45=FACE_OUTER_BOUND('',#63,.T.);
#46=EDGE_LOOP('',(#173,#174,#175,#176,#177));
#47=EDGE_LOOP('',(#178));
#48=EDGE_LOOP('',(#179,#180,#181,#182));
#49=EDGE_LOOP('',(#183,#184,#185,#186));
#50=EDGE_LOOP('',(#187,#188,#189,#190));
#51=EDGE_LOOP('',(#191));
#52=EDGE_LOOP('',(#192));
#53=EDGE_LOOP('',(#193));
#54=EDGE_LOOP('',(#194,#195,#196,#197,#198,#199));
#55=EDGE_LOOP('',(#200,#201,#202,#203,#204,#205));
#56=EDGE_LOOP('',(#206,#207,#208,#209,#210,#211));
#57=EDGE_LOOP('',(#212,#213,#214,#215,#216,#217));
#58=EDGE_LOOP('',(#218,#219,#220,#221,#222,#223));
#59=EDGE_LOOP('',(#224,#225,#226,#227,#228,#229));
#60=EDGE_LOOP('',(#230,#231,#232,#233,#234,#235));
#61=EDGE_LOOP('',(#236,#237,#238,#239,#240,#241));
#62=EDGE_LOOP('',(#242,#243,#244,#245,#246));
#63=EDGE_LOOP('',(#247,#248,#249,#250));
#64=LINE('',#472,#70);
#65=LINE('',#531,#71);
#66=LINE('',#543,#72);
#67=LINE('',#555,#73);
#68=LINE('',#567,#74);
#69=LINE('',#574,#75);
#70=VECTOR('',#367,5.50000000000001);
#71=VECTOR('',#410,6.25);
#72=VECTOR('',#425,7.);
#73=VECTOR('',#440,6.05);
#74=VECTOR('',#455,5.1);
#75=VECTOR('',#466,4.90000000000001);
#76=CIRCLE('',#313,5.50000000000001);
#77=CIRCLE('',#314,5.50000000000001);
#78=CIRCLE('',#315,5.50000000000001);
#79=CIRCLE('',#317,5.90399680510978);
#80=CIRCLE('',#319,6.05129073482212);
#81=CIRCLE('',#320,0.2);
#82=CIRCLE('',#321,6.72645888592106);
#83=CIRCLE('',#322,3.6);
#84=CIRCLE('',#324,6.541655614481);
#85=CIRCLE('',#325,0.2);
#86=CIRCLE('',#327,5.3);
#87=CIRCLE('',#329,4.30000000000001);
#88=CIRCLE('',#331,5.5585786437627);
#89=CIRCLE('',#332,5.5585786437627);
#90=CIRCLE('',#333,0.2);
#91=CIRCLE('',#335,6.94142135623731);
#92=CIRCLE('',#336,6.94142135623731);
#93=CIRCLE('',#338,0.2);
#94=CIRCLE('',#339,7.);
#95=CIRCLE('',#340,7.);
#96=CIRCLE('',#342,7.);
#97=CIRCLE('',#343,7.);
#98=CIRCLE('',#345,0.2);
#99=CIRCLE('',#346,6.98424991228228);
#100=CIRCLE('',#347,6.98424991228228);
#101=CIRCLE('',#349,5.11575008771772);
#102=CIRCLE('',#350,5.11575008771772);
#103=CIRCLE('',#352,5.1);
#104=CIRCLE('',#353,5.1);
#105=CIRCLE('',#354,0.2);
#106=CIRCLE('',#356,5.1);
#107=CIRCLE('',#357,5.1);
#108=CIRCLE('',#359,0.2);
#109=VERTEX_POINT('',#469);
#110=VERTEX_POINT('',#471);
#111=VERTEX_POINT('',#473);
#112=VERTEX_POINT('',#477);
#113=VERTEX_POINT('',#480);
#114=VERTEX_POINT('',#510);
#115=VERTEX_POINT('',#514);
#116=VERTEX_POINT('',#518);
#117=VERTEX_POINT('',#521);
#118=VERTEX_POINT('',#524);
#119=VERTEX_POINT('',#525);
#120=VERTEX_POINT('',#530);
#121=VERTEX_POINT('',#532);
#122=VERTEX_POINT('',#536);
#123=VERTEX_POINT('',#538);
#124=VERTEX_POINT('',#542);
#125=VERTEX_POINT('',#544);
#126=VERTEX_POINT('',#548);
#127=VERTEX_POINT('',#550);
#128=VERTEX_POINT('',#554);
#129=VERTEX_POINT('',#556);
#130=VERTEX_POINT('',#560);
#131=VERTEX_POINT('',#561);
#132=VERTEX_POINT('',#566);
#133=VERTEX_POINT('',#568);
#134=EDGE_CURVE('',#109,#109,#76,.T.);
#135=EDGE_CURVE('',#109,#110,#64,.T.);
#136=EDGE_CURVE('',#111,#110,#77,.T.);
#137=EDGE_CURVE('',#110,#111,#78,.T.);
#138=EDGE_CURVE('',#112,#112,#79,.T.);
#139=EDGE_CURVE('',#113,#113,#80,.T.);
#140=EDGE_CURVE('',#113,#112,#81,.T.);
#141=EDGE_CURVE('',#114,#114,#82,.T.);
#142=EDGE_CURVE('',#114,#113,#83,.T.);
#143=EDGE_CURVE('',#115,#115,#84,.T.);
#144=EDGE_CURVE('',#115,#114,#85,.T.);
#145=EDGE_CURVE('',#116,#116,#86,.T.);
#146=EDGE_CURVE('',#117,#117,#87,.T.);
#147=EDGE_CURVE('',#118,#119,#88,.T.);
#148=EDGE_CURVE('',#119,#118,#89,.T.);
#149=EDGE_CURVE('',#118,#111,#90,.T.);
#150=EDGE_CURVE('',#119,#120,#65,.T.);
#151=EDGE_CURVE('',#121,#120,#91,.T.);
#152=EDGE_CURVE('',#120,#121,#92,.T.);
#153=EDGE_CURVE('',#121,#122,#93,.T.);
#154=EDGE_CURVE('',#122,#123,#94,.T.);
#155=EDGE_CURVE('',#123,#122,#95,.T.);
#156=EDGE_CURVE('',#123,#124,#66,.T.);
#157=EDGE_CURVE('',#125,#124,#96,.T.);
#158=EDGE_CURVE('',#124,#125,#97,.T.);
#159=EDGE_CURVE('',#125,#126,#98,.T.);
#160=EDGE_CURVE('',#126,#127,#99,.T.);
#161=EDGE_CURVE('',#127,#126,#100,.T.);
#162=EDGE_CURVE('',#127,#128,#67,.T.);
#163=EDGE_CURVE('',#129,#128,#101,.T.);
#164=EDGE_CURVE('',#128,#129,#102,.T.);
#165=EDGE_CURVE('',#130,#131,#103,.T.);
#166=EDGE_CURVE('',#131,#130,#104,.T.);
#167=EDGE_CURVE('',#130,#129,#105,.T.);
#168=EDGE_CURVE('',#131,#132,#68,.T.);
#169=EDGE_CURVE('',#133,#132,#106,.T.);
#170=EDGE_CURVE('',#132,#133,#107,.T.);
#171=EDGE_CURVE('',#116,#133,#108,.T.);
#172=EDGE_CURVE('',#117,#109,#69,.T.);
#173=ORIENTED_EDGE('',*,*,#134,.F.);
#174=ORIENTED_EDGE('',*,*,#135,.T.);
#175=ORIENTED_EDGE('',*,*,#136,.F.);
#176=ORIENTED_EDGE('',*,*,#137,.F.);
#177=ORIENTED_EDGE('',*,*,#135,.F.);
#178=ORIENTED_EDGE('',*,*,#138,.F.);
#179=ORIENTED_EDGE('',*,*,#139,.T.);
#180=ORIENTED_EDGE('',*,*,#140,.T.);
#181=ORIENTED_EDGE('',*,*,#138,.T.);
#182=ORIENTED_EDGE('',*,*,#140,.F.);
#183=ORIENTED_EDGE('',*,*,#141,.F.);
#184=ORIENTED_EDGE('',*,*,#142,.T.);
#185=ORIENTED_EDGE('',*,*,#139,.F.);
#186=ORIENTED_EDGE('',*,*,#142,.F.);
#187=ORIENTED_EDGE('',*,*,#143,.T.);
#188=ORIENTED_EDGE('',*,*,#144,.T.);
#189=ORIENTED_EDGE('',*,*,#141,.T.);
#190=ORIENTED_EDGE('',*,*,#144,.F.);
#191=ORIENTED_EDGE('',*,*,#143,.F.);
#192=ORIENTED_EDGE('',*,*,#145,.F.);
#193=ORIENTED_EDGE('',*,*,#146,.T.);
#194=ORIENTED_EDGE('',*,*,#147,.T.);
#195=ORIENTED_EDGE('',*,*,#148,.T.);
#196=ORIENTED_EDGE('',*,*,#149,.T.);
#197=ORIENTED_EDGE('',*,*,#136,.T.);
#198=ORIENTED_EDGE('',*,*,#137,.T.);
#199=ORIENTED_EDGE('',*,*,#149,.F.);
#200=ORIENTED_EDGE('',*,*,#147,.F.);
#201=ORIENTED_EDGE('',*,*,#148,.F.);
#202=ORIENTED_EDGE('',*,*,#150,.T.);
#203=ORIENTED_EDGE('',*,*,#151,.F.);
#204=ORIENTED_EDGE('',*,*,#152,.F.);
#205=ORIENTED_EDGE('',*,*,#150,.F.);
#206=ORIENTED_EDGE('',*,*,#152,.T.);
#207=ORIENTED_EDGE('',*,*,#153,.T.);
#208=ORIENTED_EDGE('',*,*,#154,.T.);
#209=ORIENTED_EDGE('',*,*,#155,.T.);
#210=ORIENTED_EDGE('',*,*,#153,.F.);
#211=ORIENTED_EDGE('',*,*,#151,.T.);
#212=ORIENTED_EDGE('',*,*,#154,.F.);
#213=ORIENTED_EDGE('',*,*,#155,.F.);
#214=ORIENTED_EDGE('',*,*,#156,.T.);
#215=ORIENTED_EDGE('',*,*,#157,.F.);
#216=ORIENTED_EDGE('',*,*,#158,.F.);
#217=ORIENTED_EDGE('',*,*,#156,.F.);
#218=ORIENTED_EDGE('',*,*,#158,.T.);
#219=ORIENTED_EDGE('',*,*,#159,.T.);
#220=ORIENTED_EDGE('',*,*,#160,.T.);
#221=ORIENTED_EDGE('',*,*,#161,.T.);
#222=ORIENTED_EDGE('',*,*,#159,.F.);
#223=ORIENTED_EDGE('',*,*,#157,.T.);
#224=ORIENTED_EDGE('',*,*,#160,.F.);
#225=ORIENTED_EDGE('',*,*,#161,.F.);
#226=ORIENTED_EDGE('',*,*,#162,.T.);
#227=ORIENTED_EDGE('',*,*,#163,.F.);
#228=ORIENTED_EDGE('',*,*,#164,.F.);
#229=ORIENTED_EDGE('',*,*,#162,.F.);
#230=ORIENTED_EDGE('',*,*,#165,.T.);
#231=ORIENTED_EDGE('',*,*,#166,.T.);
#232=ORIENTED_EDGE('',*,*,#167,.T.);
#233=ORIENTED_EDGE('',*,*,#163,.T.);
#234=ORIENTED_EDGE('',*,*,#164,.T.);
#235=ORIENTED_EDGE('',*,*,#167,.F.);
#236=ORIENTED_EDGE('',*,*,#165,.F.);
#237=ORIENTED_EDGE('',*,*,#166,.F.);
#238=ORIENTED_EDGE('',*,*,#168,.T.);
#239=ORIENTED_EDGE('',*,*,#169,.F.);
#240=ORIENTED_EDGE('',*,*,#170,.F.);
#241=ORIENTED_EDGE('',*,*,#168,.F.);
#242=ORIENTED_EDGE('',*,*,#145,.T.);
#243=ORIENTED_EDGE('',*,*,#171,.T.);
#244=ORIENTED_EDGE('',*,*,#169,.T.);
#245=ORIENTED_EDGE('',*,*,#170,.T.);
#246=ORIENTED_EDGE('',*,*,#171,.F.);
#247=ORIENTED_EDGE('',*,*,#146,.F.);
#248=ORIENTED_EDGE('',*,*,#172,.T.);
#249=ORIENTED_EDGE('',*,*,#134,.T.);
#250=ORIENTED_EDGE('',*,*,#172,.F.);
#251=CYLINDRICAL_SURFACE('',#312,5.50000000000001);
#252=CYLINDRICAL_SURFACE('',#341,7.);
#253=CYLINDRICAL_SURFACE('',#355,5.1);
#254=STYLED_ITEM('',(#595),#272);
#255=STYLED_ITEM('',(#595),#273);
#256=STYLED_ITEM('',(#595),#274);
#257=STYLED_ITEM('',(#595),#275);
#258=STYLED_ITEM('',(#595),#276);
#259=STYLED_ITEM('',(#595),#277);
#260=STYLED_ITEM('',(#595),#278);
#261=STYLED_ITEM('',(#595),#279);
#262=STYLED_ITEM('',(#595),#280);
#263=STYLED_ITEM('',(#595),#281);
#264=STYLED_ITEM('',(#595),#282);
#265=STYLED_ITEM('',(#595),#283);
#266=STYLED_ITEM('',(#595),#284);
#267=STYLED_ITEM('',(#595),#285);
#268=STYLED_ITEM('',(#595),#286);
#269=STYLED_ITEM('',(#595),#287);
#270=STYLED_ITEM('',(#595),#288);
#271=STYLED_ITEM('',(#594),#13);
#272=ADVANCED_FACE('',(#29),#251,.T.);
#273=ADVANCED_FACE('',(#30),#26,.T.);
#274=ADVANCED_FACE('',(#31),#19,.T.);
#275=ADVANCED_FACE('',(#32),#18,.F.);
#276=ADVANCED_FACE('',(#33),#20,.T.);
#277=ADVANCED_FACE('',(#34,#17),#27,.T.);
#278=ADVANCED_FACE('',(#35),#28,.T.);
#279=ADVANCED_FACE('',(#36),#21,.F.);
#280=ADVANCED_FACE('',(#37),#14,.T.);
#281=ADVANCED_FACE('',(#38),#22,.T.);
#282=ADVANCED_FACE('',(#39),#252,.T.);
#283=ADVANCED_FACE('',(#40),#23,.T.);
#284=ADVANCED_FACE('',(#41),#15,.T.);
#285=ADVANCED_FACE('',(#42),#24,.F.);
#286=ADVANCED_FACE('',(#43),#253,.T.);
#287=ADVANCED_FACE('',(#44),#25,.F.);
#288=ADVANCED_FACE('',(#45),#16,.T.);
#289=CLOSED_SHELL('',(#272,#273,#274,#275,#276,#277,#278,#279,#280,#281,
#282,#283,#284,#285,#286,#287,#288));
#290=DERIVED_UNIT_ELEMENT(#293,1.);
#291=DERIVED_UNIT_ELEMENT(#580,-3.);
#292=DIMENSIONAL_EXPONENTS(0.,1.,0.,0.,0.,0.,0.);
#293=(
CONVERSION_BASED_UNIT('gram',#295)
MASS_UNIT()
NAMED_UNIT(#292)
);
#294=(
MASS_UNIT()
NAMED_UNIT(*)
SI_UNIT(.KILO.,.GRAM.)
);
#295=MASS_MEASURE_WITH_UNIT(MASS_MEASURE(0.001),#294);
#296=DERIVED_UNIT((#290,#291));
#297=MEASURE_REPRESENTATION_ITEM('density measure',
POSITIVE_RATIO_MEASURE(1.),#296);
#298=PROPERTY_DEFINITION_REPRESENTATION(#303,#300);
#299=PROPERTY_DEFINITION_REPRESENTATION(#304,#301);
#300=REPRESENTATION('material name',(#302),#577);
#301=REPRESENTATION('density',(#297),#577);
#302=DESCRIPTIVE_REPRESENTATION_ITEM('Generic','Generic');
#303=PROPERTY_DEFINITION('material property','material name',#587);
#304=PROPERTY_DEFINITION('material property','density of part',#587);
#305=DATE_TIME_ROLE('creation_date');
#306=APPLIED_DATE_AND_TIME_ASSIGNMENT(#307,#305,(#587));
#307=DATE_AND_TIME(#308,#309);
#308=CALENDAR_DATE(2024,21,11);
#309=LOCAL_TIME(0,0,0.,#310);
#310=COORDINATED_UNIVERSAL_TIME_OFFSET(0,0,.BEHIND.);
#311=AXIS2_PLACEMENT_3D('',#467,#361,#362);
#312=AXIS2_PLACEMENT_3D('',#468,#363,#364);
#313=AXIS2_PLACEMENT_3D('',#470,#365,#366);
#314=AXIS2_PLACEMENT_3D('',#474,#368,#369);
#315=AXIS2_PLACEMENT_3D('',#475,#370,#371);
#316=AXIS2_PLACEMENT_3D('',#476,#372,#373);
#317=AXIS2_PLACEMENT_3D('',#478,#374,#375);
#318=AXIS2_PLACEMENT_3D('',#479,#376,#377);
#319=AXIS2_PLACEMENT_3D('',#481,#378,#379);
#320=AXIS2_PLACEMENT_3D('',#482,#380,#381);
#321=AXIS2_PLACEMENT_3D('',#511,#382,#383);
#322=AXIS2_PLACEMENT_3D('',#512,#384,#385);
#323=AXIS2_PLACEMENT_3D('',#513,#386,#387);
#324=AXIS2_PLACEMENT_3D('',#515,#388,#389);
#325=AXIS2_PLACEMENT_3D('',#516,#390,#391);
#326=AXIS2_PLACEMENT_3D('',#517,#392,#393);
#327=AXIS2_PLACEMENT_3D('',#519,#394,#395);
#328=AXIS2_PLACEMENT_3D('',#520,#396,#397);
#329=AXIS2_PLACEMENT_3D('',#522,#398,#399);
#330=AXIS2_PLACEMENT_3D('',#523,#400,#401);
#331=AXIS2_PLACEMENT_3D('',#526,#402,#403);
#332=AXIS2_PLACEMENT_3D('',#527,#404,#405);
#333=AXIS2_PLACEMENT_3D('',#528,#406,#407);
#334=AXIS2_PLACEMENT_3D('',#529,#408,#409);
#335=AXIS2_PLACEMENT_3D('',#533,#411,#412);
#336=AXIS2_PLACEMENT_3D('',#534,#413,#414);
#337=AXIS2_PLACEMENT_3D('',#535,#415,#416);
#338=AXIS2_PLACEMENT_3D('',#537,#417,#418);
#339=AXIS2_PLACEMENT_3D('',#539,#419,#420);
#340=AXIS2_PLACEMENT_3D('',#540,#421,#422);
#341=AXIS2_PLACEMENT_3D('',#541,#423,#424);
#342=AXIS2_PLACEMENT_3D('',#545,#426,#427);
#343=AXIS2_PLACEMENT_3D('',#546,#428,#429);
#344=AXIS2_PLACEMENT_3D('',#547,#430,#431);
#345=AXIS2_PLACEMENT_3D('',#549,#432,#433);
#346=AXIS2_PLACEMENT_3D('',#551,#434,#435);
#347=AXIS2_PLACEMENT_3D('',#552,#436,#437);
#348=AXIS2_PLACEMENT_3D('',#553,#438,#439);
#349=AXIS2_PLACEMENT_3D('',#557,#441,#442);
#350=AXIS2_PLACEMENT_3D('',#558,#443,#444);
#351=AXIS2_PLACEMENT_3D('',#559,#445,#446);
#352=AXIS2_PLACEMENT_3D('',#562,#447,#448);
#353=AXIS2_PLACEMENT_3D('',#563,#449,#450);
#354=AXIS2_PLACEMENT_3D('',#564,#451,#452);
#355=AXIS2_PLACEMENT_3D('',#565,#453,#454);
#356=AXIS2_PLACEMENT_3D('',#569,#456,#457);
#357=AXIS2_PLACEMENT_3D('',#570,#458,#459);
#358=AXIS2_PLACEMENT_3D('',#571,#460,#461);
#359=AXIS2_PLACEMENT_3D('',#572,#462,#463);
#360=AXIS2_PLACEMENT_3D('',#573,#464,#465);
#361=DIRECTION('axis',(0.,0.,1.));
#362=DIRECTION('refdir',(1.,0.,0.));
#363=DIRECTION('center_axis',(0.,1.,0.));
#364=DIRECTION('ref_axis',(-1.,-7.58941520739854E-17,0.));
#365=DIRECTION('center_axis',(0.,1.,0.));
#366=DIRECTION('ref_axis',(-1.,-7.58941520739854E-17,0.));
#367=DIRECTION('',(0.,-1.,0.));
#368=DIRECTION('center_axis',(0.,-1.,0.));
#369=DIRECTION('ref_axis',(1.,0.,1.22464679914735E-16));
#370=DIRECTION('center_axis',(0.,-1.,0.));
#371=DIRECTION('ref_axis',(1.,0.,1.22464679914735E-16));
#372=DIRECTION('center_axis',(0.,-1.,0.));
#373=DIRECTION('ref_axis',(0.,0.,-1.));
#374=DIRECTION('center_axis',(0.,1.,0.));
#375=DIRECTION('ref_axis',(1.,0.,1.22464679914735E-16));
#376=DIRECTION('center_axis',(0.,1.,0.));
#377=DIRECTION('ref_axis',(0.,0.,1.));
#378=DIRECTION('center_axis',(0.,-1.,0.));
#379=DIRECTION('ref_axis',(1.,0.,1.22464679914735E-16));
#380=DIRECTION('center_axis',(-1.,0.,1.22464679914735E-16));
#381=DIRECTION('ref_axis',(-1.22464679914735E-16,0.,-1.));
#382=DIRECTION('center_axis',(0.,1.,0.));
#383=DIRECTION('ref_axis',(1.,0.,1.22464679914735E-16));
#384=DIRECTION('center_axis',(-1.,0.,1.22464679914735E-16));
#385=DIRECTION('ref_axis',(-1.22464679914735E-16,0.,-1.));
#386=DIRECTION('center_axis',(0.,1.,0.));
#387=DIRECTION('ref_axis',(0.,0.,1.));
#388=DIRECTION('center_axis',(0.,-1.,0.));
#389=DIRECTION('ref_axis',(1.,0.,1.22464679914735E-16));
#390=DIRECTION('center_axis',(-1.,0.,1.22464679914735E-16));
#391=DIRECTION('ref_axis',(-1.22464679914735E-16,0.,-1.));
#392=DIRECTION('center_axis',(0.,1.,0.));
#393=DIRECTION('ref_axis',(0.,0.,1.));
#394=DIRECTION('center_axis',(0.,1.,0.));
#395=DIRECTION('ref_axis',(1.,0.,1.22464679914735E-16));
#396=DIRECTION('center_axis',(0.,1.,0.));
#397=DIRECTION('ref_axis',(0.,0.,1.));
#398=DIRECTION('center_axis',(0.,1.,0.));
#399=DIRECTION('ref_axis',(-1.,-7.58941520739854E-17,0.));
#400=DIRECTION('center_axis',(0.,1.,0.));
#401=DIRECTION('ref_axis',(0.,0.,1.));
#402=DIRECTION('center_axis',(0.,1.,0.));
#403=DIRECTION('ref_axis',(1.,0.,0.));
#404=DIRECTION('center_axis',(0.,1.,0.));
#405=DIRECTION('ref_axis',(1.,0.,0.));
#406=DIRECTION('center_axis',(-1.,0.,1.22464679914735E-16));
#407=DIRECTION('ref_axis',(-1.22464679914735E-16,0.,-1.));
#408=DIRECTION('center_axis',(0.,-1.,0.));
#409=DIRECTION('ref_axis',(-1.,-7.58941520739854E-17,0.));
#410=DIRECTION('',(0.707106781186547,-0.707106781186548,-8.65956056235492E-17));
#411=DIRECTION('center_axis',(0.,-1.,0.));
#412=DIRECTION('ref_axis',(1.,0.,0.));
#413=DIRECTION('center_axis',(0.,-1.,0.));
#414=DIRECTION('ref_axis',(1.,0.,0.));
#415=DIRECTION('center_axis',(0.,1.,0.));
#416=DIRECTION('ref_axis',(0.,0.,1.));
#417=DIRECTION('center_axis',(-1.,0.,1.22464679914735E-16));
#418=DIRECTION('ref_axis',(-1.22464679914735E-16,0.,-1.));
#419=DIRECTION('center_axis',(0.,1.,0.));
#420=DIRECTION('ref_axis',(1.,0.,1.22464679914735E-16));
#421=DIRECTION('center_axis',(0.,1.,0.));
#422=DIRECTION('ref_axis',(1.,0.,1.22464679914735E-16));
#423=DIRECTION('center_axis',(0.,1.,0.));
#424=DIRECTION('ref_axis',(-1.,-7.58941520739854E-17,0.));
#425=DIRECTION('',(0.,-1.,0.));
#426=DIRECTION('center_axis',(0.,-1.,0.));
#427=DIRECTION('ref_axis',(1.,0.,1.22464679914735E-16));
#428=DIRECTION('center_axis',(0.,-1.,0.));
#429=DIRECTION('ref_axis',(1.,0.,1.22464679914735E-16));
#430=DIRECTION('center_axis',(0.,1.,0.));
#431=DIRECTION('ref_axis',(0.,0.,1.));
#432=DIRECTION('center_axis',(-1.,0.,1.22464679914735E-16));
#433=DIRECTION('ref_axis',(-1.22464679914735E-16,0.,-1.));
#434=DIRECTION('center_axis',(0.,1.,0.));
#435=DIRECTION('ref_axis',(1.,0.,-1.76482110446854E-32));
#436=DIRECTION('center_axis',(0.,1.,0.));
#437=DIRECTION('ref_axis',(1.,0.,-1.76482110446854E-32));
#438=DIRECTION('center_axis',(0.,1.,0.));
#439=DIRECTION('ref_axis',(-1.,-7.58941520739854E-17,0.));
#440=DIRECTION('',(-0.388972037040363,-0.921249561411386,4.76353360119306E-17));
#441=DIRECTION('center_axis',(0.,-1.,0.));
#442=DIRECTION('ref_axis',(1.,0.,0.));
#443=DIRECTION('center_axis',(0.,-1.,0.));
#444=DIRECTION('ref_axis',(1.,0.,0.));
#445=DIRECTION('center_axis',(0.,1.,0.));
#446=DIRECTION('ref_axis',(0.,0.,1.));
#447=DIRECTION('center_axis',(0.,1.,0.));
#448=DIRECTION('ref_axis',(1.,0.,1.22464679914735E-16));
#449=DIRECTION('center_axis',(0.,1.,0.));
#450=DIRECTION('ref_axis',(1.,0.,1.22464679914735E-16));
#451=DIRECTION('center_axis',(-1.,0.,1.22464679914735E-16));
#452=DIRECTION('ref_axis',(-1.22464679914735E-16,0.,-1.));
#453=DIRECTION('center_axis',(0.,1.,0.));
#454=DIRECTION('ref_axis',(-1.,-7.58941520739854E-17,0.));
#455=DIRECTION('',(0.,-1.,0.));
#456=DIRECTION('center_axis',(0.,-1.,0.));
#457=DIRECTION('ref_axis',(1.,0.,1.22464679914735E-16));
#458=DIRECTION('center_axis',(0.,-1.,0.));
#459=DIRECTION('ref_axis',(1.,0.,1.22464679914735E-16));
#460=DIRECTION('center_axis',(0.,1.,0.));
#461=DIRECTION('ref_axis',(0.,0.,1.));
#462=DIRECTION('center_axis',(-1.,0.,1.22464679914735E-16));
#463=DIRECTION('ref_axis',(-1.22464679914735E-16,0.,-1.));
#464=DIRECTION('center_axis',(0.,-1.,0.));
#465=DIRECTION('ref_axis',(-1.,-7.58941520739854E-17,0.));
#466=DIRECTION('',(0.707106781186547,-0.707106781186548,-8.65956056235493E-17));
#467=CARTESIAN_POINT('',(0.,0.,0.));
#468=CARTESIAN_POINT('Origin',(0.,24.4,0.));
#469=CARTESIAN_POINT('',(5.50000000000001,35.8,-6.73555739531045E-16));
#470=CARTESIAN_POINT('Origin',(0.,35.8,0.));
#471=CARTESIAN_POINT('',(5.50000000000001,13.0828427124746,-6.73555739531045E-16));
#472=CARTESIAN_POINT('',(5.50000000000001,24.4,-6.73555739531045E-16));
#473=CARTESIAN_POINT('',(-6.73555739531045E-16,13.0828427124746,-5.50000000000001));
#474=CARTESIAN_POINT('Origin',(0.,13.0828427124746,0.));
#475=CARTESIAN_POINT('Origin',(0.,13.0828427124746,0.));
#476=CARTESIAN_POINT('Origin',(-4.99518338469886,-1.5837483234582E-15,0.));
#477=CARTESIAN_POINT('',(-7.2303107895539E-16,-1.59594559789866E-15,-5.90399680510978));
#478=CARTESIAN_POINT('Origin',(0.,-1.59594559789866E-15,0.));
#479=CARTESIAN_POINT('Origin',(0.,0.199999999999999,0.));
#480=CARTESIAN_POINT('',(-7.41069382910995E-16,0.0647058823529401,-6.05129073482212));
#481=CARTESIAN_POINT('Origin',(0.,0.0647058823529401,0.));
#482=CARTESIAN_POINT('Origin',(-7.2303107895539E-16,0.199999999999999,-5.90399680510978));
#483=CARTESIAN_POINT('Ctrl Pts',(0.,0.0647058823529389,-6.05129073482212));
#484=CARTESIAN_POINT('Ctrl Pts',(-6.05129073482212,0.0647058823529389,-6.05129073482212));
#485=CARTESIAN_POINT('Ctrl Pts',(-6.05129073482212,0.0647058823529389,0.));
#486=CARTESIAN_POINT('Ctrl Pts',(-6.05129073482212,0.0647058823529389,6.05129073482212));
#487=CARTESIAN_POINT('Ctrl Pts',(0.,0.0647058823529389,6.05129073482212));
#488=CARTESIAN_POINT('Ctrl Pts',(6.05129073482212,0.0647058823529389,6.05129073482212));
#489=CARTESIAN_POINT('Ctrl Pts',(6.05129073482212,0.0647058823529389,0.));
#490=CARTESIAN_POINT('Ctrl Pts',(6.05129073482212,0.0647058823529389,-6.05129073482212));
#491=CARTESIAN_POINT('Ctrl Pts',(0.,0.0647058823529389,-6.05129073482212));
#492=CARTESIAN_POINT('Ctrl Pts',(0.,1.75532477561656,-7.60417748234968));
#493=CARTESIAN_POINT('Ctrl Pts',(-7.60417748234968,1.75532477561656,-7.60417748234968));
#494=CARTESIAN_POINT('Ctrl Pts',(-7.60417748234968,1.75532477561656,0.));
#495=CARTESIAN_POINT('Ctrl Pts',(-7.60417748234968,1.75532477561656,7.60417748234968));
#496=CARTESIAN_POINT('Ctrl Pts',(0.,1.75532477561656,7.60417748234968));
#497=CARTESIAN_POINT('Ctrl Pts',(7.60417748234968,1.75532477561656,7.60417748234968));
#498=CARTESIAN_POINT('Ctrl Pts',(7.60417748234968,1.75532477561656,0.));
#499=CARTESIAN_POINT('Ctrl Pts',(7.60417748234968,1.75532477561656,-7.60417748234968));
#500=CARTESIAN_POINT('Ctrl Pts',(0.,1.75532477561656,-7.60417748234968));
#501=CARTESIAN_POINT('Ctrl Pts',(0.,3.87647058823529,-6.72645888592106));
#502=CARTESIAN_POINT('Ctrl Pts',(-6.72645888592106,3.87647058823529,-6.72645888592106));
#503=CARTESIAN_POINT('Ctrl Pts',(-6.72645888592106,3.87647058823529,0.));
#504=CARTESIAN_POINT('Ctrl Pts',(-6.72645888592106,3.87647058823529,6.72645888592106));
#505=CARTESIAN_POINT('Ctrl Pts',(0.,3.87647058823529,6.72645888592106));
#506=CARTESIAN_POINT('Ctrl Pts',(6.72645888592106,3.87647058823529,6.72645888592106));
#507=CARTESIAN_POINT('Ctrl Pts',(6.72645888592106,3.87647058823529,0.));
#508=CARTESIAN_POINT('Ctrl Pts',(6.72645888592106,3.87647058823529,-6.72645888592106));
#509=CARTESIAN_POINT('Ctrl Pts',(0.,3.87647058823529,-6.72645888592106));
#510=CARTESIAN_POINT('',(-8.2375363442395E-16,3.87647058823529,-6.72645888592106));
#511=CARTESIAN_POINT('Origin',(0.,3.87647058823529,0.));
#512=CARTESIAN_POINT('Origin',(-4.163799117101E-16,2.5,-3.4));
#513=CARTESIAN_POINT('Origin',(0.,3.8,0.));
#514=CARTESIAN_POINT('',(-8.01121760939847E-16,4.,-6.541655614481));
#515=CARTESIAN_POINT('Origin',(0.,4.,0.));
#516=CARTESIAN_POINT('Origin',(-8.01121760939847E-16,3.8,-6.541655614481));
#517=CARTESIAN_POINT('Origin',(-5.88630681719536,4.,0.));
#518=CARTESIAN_POINT('',(-6.49062803548097E-16,4.,-5.3));
#519=CARTESIAN_POINT('Origin',(0.,4.,0.));
#520=CARTESIAN_POINT('Origin',(-4.15000000000001,37.,0.));
#521=CARTESIAN_POINT('',(4.30000000000001,37.,-5.26598123633363E-16));
#522=CARTESIAN_POINT('Origin',(0.,37.,0.));
#523=CARTESIAN_POINT('Origin',(0.,13.0828427124746,0.));
#524=CARTESIAN_POINT('',(-6.80729554389282E-16,12.9414213562373,-5.5585786437627));
#525=CARTESIAN_POINT('',(5.5585786437627,12.9414213562373,-6.80729554389282E-16));
#526=CARTESIAN_POINT('Origin',(0.,12.9414213562373,-6.80729554389282E-16));
#527=CARTESIAN_POINT('Origin',(0.,12.9414213562373,-6.80729554389282E-16));
#528=CARTESIAN_POINT('Origin',(-6.98048675513992E-16,13.0828427124746,-5.70000000000001));
#529=CARTESIAN_POINT('Origin',(0.,12.25,0.));
#530=CARTESIAN_POINT('',(6.94142135623731,11.5585786437627,-8.5007894454491E-16));
#531=CARTESIAN_POINT('',(6.25,12.25,-7.65404249467096E-16));
#532=CARTESIAN_POINT('',(-8.5007894454491E-16,11.5585786437627,-6.94142135623731));
#533=CARTESIAN_POINT('Origin',(0.,11.5585786437627,-8.5007894454491E-16));
#534=CARTESIAN_POINT('Origin',(0.,11.5585786437627,-8.5007894454491E-16));
#535=CARTESIAN_POINT('Origin',(0.,11.4171572875254,0.));
#536=CARTESIAN_POINT('',(-8.57252759403147E-16,11.4171572875254,-7.));
#537=CARTESIAN_POINT('Origin',(-8.327598234202E-16,11.4171572875254,-6.8));
#538=CARTESIAN_POINT('',(7.,11.4171572875254,-8.57252759403147E-16));
#539=CARTESIAN_POINT('Origin',(0.,11.4171572875254,0.));
#540=CARTESIAN_POINT('Origin',(0.,11.4171572875254,0.));
#541=CARTESIAN_POINT('Origin',(0.,11.25,0.));
#542=CARTESIAN_POINT('',(7.,11.0404915680766,-8.57252759403147E-16));
#543=CARTESIAN_POINT('',(7.,11.25,-8.57252759403147E-16));
#544=CARTESIAN_POINT('',(-8.57252759403147E-16,11.0404915680766,-7.));
#545=CARTESIAN_POINT('Origin',(0.,11.0404915680766,0.));
#546=CARTESIAN_POINT('Origin',(0.,11.0404915680766,0.));
#547=CARTESIAN_POINT('Origin',(0.,11.0404915680766,0.));
#548=CARTESIAN_POINT('',(-8.55323929952167E-16,10.9626971606686,-6.98424991228228));
#549=CARTESIAN_POINT('Origin',(-8.327598234202E-16,11.0404915680766,-6.8));
#550=CARTESIAN_POINT('',(6.98424991228228,10.9626971606686,-8.55323929952167E-16));
#551=CARTESIAN_POINT('Origin',(0.,10.9626971606686,-8.55323929952167E-16));
#552=CARTESIAN_POINT('Origin',(0.,10.9626971606686,-8.55323929952167E-16));
#553=CARTESIAN_POINT('Origin',(0.,8.75,0.));
#554=CARTESIAN_POINT('',(5.11575008771772,6.53730283933145,-6.2649869701613E-16));
#555=CARTESIAN_POINT('',(6.05,8.75,-7.40911313484149E-16));
#556=CARTESIAN_POINT('',(-6.2649869701613E-16,6.53730283933144,-5.11575008771772));
#557=CARTESIAN_POINT('Origin',(0.,6.53730283933145,-6.2649869701613E-16));
#558=CARTESIAN_POINT('Origin',(0.,6.53730283933145,-6.2649869701613E-16));
#559=CARTESIAN_POINT('Origin',(0.,6.45950843192337,0.));
#560=CARTESIAN_POINT('',(-6.2456986756515E-16,6.45950843192337,-5.1));
#561=CARTESIAN_POINT('',(5.1,6.45950843192337,-6.2456986756515E-16));
#562=CARTESIAN_POINT('Origin',(0.,6.45950843192337,0.));
#563=CARTESIAN_POINT('Origin',(0.,6.45950843192337,0.));
#564=CARTESIAN_POINT('Origin',(-6.49062803548097E-16,6.45950843192337,-5.3));
#565=CARTESIAN_POINT('Origin',(0.,5.25,0.));
#566=CARTESIAN_POINT('',(5.1,4.2,-6.2456986756515E-16));
#567=CARTESIAN_POINT('',(5.1,5.25,-6.2456986756515E-16));
#568=CARTESIAN_POINT('',(-6.2456986756515E-16,4.2,-5.1));
#569=CARTESIAN_POINT('Origin',(0.,4.2,0.));
#570=CARTESIAN_POINT('Origin',(0.,4.2,0.));
#571=CARTESIAN_POINT('Origin',(0.,4.2,0.));
#572=CARTESIAN_POINT('Origin',(-6.49062803548097E-16,4.2,-5.3));
#573=CARTESIAN_POINT('Origin',(0.,36.4,0.));
#574=CARTESIAN_POINT('',(4.90000000000001,36.4,-6.00076931582205E-16));
#575=UNCERTAINTY_MEASURE_WITH_UNIT(LENGTH_MEASURE(0.01),#579,
'DISTANCE_ACCURACY_VALUE',
'Maximum model space distance between geometric entities at asserted c
onnectivities');
#576=UNCERTAINTY_MEASURE_WITH_UNIT(LENGTH_MEASURE(0.01),#579,
'DISTANCE_ACCURACY_VALUE',
'Maximum model space distance between geometric entities at asserted c
onnectivities');
#577=(
GEOMETRIC_REPRESENTATION_CONTEXT(3)
GLOBAL_UNCERTAINTY_ASSIGNED_CONTEXT((#575))
GLOBAL_UNIT_ASSIGNED_CONTEXT((#579,#581,#582))
REPRESENTATION_CONTEXT('','3D')
);
#578=(
GEOMETRIC_REPRESENTATION_CONTEXT(3)
GLOBAL_UNCERTAINTY_ASSIGNED_CONTEXT((#576))
GLOBAL_UNIT_ASSIGNED_CONTEXT((#579,#581,#582))
REPRESENTATION_CONTEXT('','3D')
);
#579=(
LENGTH_UNIT()
NAMED_UNIT(*)
SI_UNIT(.MILLI.,.METRE.)
);
#580=(
LENGTH_UNIT()
NAMED_UNIT(*)
SI_UNIT(.CENTI.,.METRE.)
);
#581=(
NAMED_UNIT(*)
PLANE_ANGLE_UNIT()
SI_UNIT($,.RADIAN.)
);
#582=(
NAMED_UNIT(*)
SI_UNIT($,.STERADIAN.)
SOLID_ANGLE_UNIT()
);
#583=SHAPE_DEFINITION_REPRESENTATION(#584,#585);
#584=PRODUCT_DEFINITION_SHAPE('',$,#587);
#585=SHAPE_REPRESENTATION('',(#311),#577);
#586=PRODUCT_DEFINITION_CONTEXT('part definition',#591,'design');
#587=PRODUCT_DEFINITION('700108','700108',#588,#586);
#588=PRODUCT_DEFINITION_FORMATION('A',$,#593);
#589=PRODUCT_RELATED_PRODUCT_CATEGORY('700108','700108',(#593));
#590=APPLICATION_PROTOCOL_DEFINITION('international standard',
'automotive_design',2009,#591);
#591=APPLICATION_CONTEXT(
'Core Data for Automotive Mechanical Design Process');
#592=PRODUCT_CONTEXT('part definition',#591,'mechanical');
#593=PRODUCT('700108','700108',$,(#592));
#594=PRESENTATION_STYLE_ASSIGNMENT((#596));
#595=PRESENTATION_STYLE_ASSIGNMENT((#597));
#596=SURFACE_STYLE_USAGE(.BOTH.,#602);
#597=SURFACE_STYLE_USAGE(.BOTH.,#603);
#598=SURFACE_STYLE_RENDERING_WITH_PROPERTIES($,#610,(#600));
#599=SURFACE_STYLE_RENDERING_WITH_PROPERTIES($,#611,(#601));
#600=SURFACE_STYLE_TRANSPARENT(0.);
#601=SURFACE_STYLE_TRANSPARENT(0.);
#602=SURFACE_SIDE_STYLE('',(#604,#598));
#603=SURFACE_SIDE_STYLE('',(#605,#599));
#604=SURFACE_STYLE_FILL_AREA(#606);
#605=SURFACE_STYLE_FILL_AREA(#607);
#606=FILL_AREA_STYLE('',(#608));
#607=FILL_AREA_STYLE('',(#609));
#608=FILL_AREA_STYLE_COLOUR('',#610);
#609=FILL_AREA_STYLE_COLOUR('',#611);
#610=COLOUR_RGB('',0.749019607843137,0.749019607843137,0.749019607843137);
#611=COLOUR_RGB('',0.956862745098039,0.956862745098039,0.956862745098039);
ENDSEC;
END-ISO-10303-21;
