ISO-10303-21;
HEADER;
/* Generated by software containing ST-Developer
 * from STEP Tools, Inc. (www.steptools.com) 
 */

FILE_DESCRIPTION(
/* description */ ('This is a sample STEP configuration'),
/* implementation_level */ '2;1');

FILE_NAME(
/* name */ 
'O:\\_Marketing\\Vault\\Technical_Drawings_stp_Vault\\900054.stp',
/* time_stamp */ '2019-12-12T12:38:34+01:00',
/* author */ ('powerJobs'),
/* organization */ ('coolOrange'),
/* preprocessor_version */ 'ST-DEVELOPER v18',
/* originating_system */ 'Autodesk Inventor 2020',
/* authorisation */ '');

FILE_SCHEMA (('AUTOMOTIVE_DESIGN { 1 0 10303 214 3 1 1 }'));
ENDSEC;

DATA;
#10=MECHANICAL_DESIGN_GEOMETRIC_PRESENTATION_REPRESENTATION('',(#236,#237,
#238,#239,#240,#241,#242,#243,#244,#245,#246,#247,#248,#249),#499);
#11=SHAPE_REPRESENTATION_RELATIONSHIP('SRR','None',#506,#12);
#12=ADVANCED_BREP_SHAPE_REPRESENTATION('',(#39,#40),#498);
#13=TOROIDAL_SURFACE('',#300,6.3,1.);
#14=TOROIDAL_SURFACE('',#309,8.8,2.5);
#15=TOROIDAL_SURFACE('',#318,6.3,0.999999999999999);
#16=CIRCLE('',#296,6.3);
#17=CIRCLE('',#297,6.3);
#18=CIRCLE('',#298,0.675);
#19=CIRCLE('',#299,0.675);
#20=CIRCLE('',#301,7.3);
#21=CIRCLE('',#302,7.3);
#22=CIRCLE('',#303,7.3);
#23=CIRCLE('',#304,1.);
#24=CIRCLE('',#306,7.3);
#25=CIRCLE('',#307,7.3);
#26=CIRCLE('',#308,7.3);
#27=CIRCLE('',#310,2.5);
#28=CIRCLE('',#311,7.3);
#29=CIRCLE('',#312,7.3);
#30=CIRCLE('',#313,7.3);
#31=CIRCLE('',#315,7.3);
#32=CIRCLE('',#316,7.3);
#33=CIRCLE('',#317,7.3);
#34=CIRCLE('',#319,6.3);
#35=CIRCLE('',#320,6.3);
#36=CIRCLE('',#321,0.999999999999999);
#37=CIRCLE('',#323,0.675);
#38=CIRCLE('',#324,0.675);
#39=MANIFOLD_SOLID_BREP('Solid1',#262);
#40=MANIFOLD_SOLID_BREP('Solid2',#263);
#41=LINE('',#439,#46);
#42=LINE('',#441,#47);
#43=LINE('',#465,#48);
#44=LINE('',#481,#49);
#45=LINE('',#495,#50);
#46=VECTOR('',#350,0.4);
#47=VECTOR('',#353,0.625);
#48=VECTOR('',#380,7.3);
#49=VECTOR('',#399,7.3);
#50=VECTOR('',#418,0.675);
#51=CYLINDRICAL_SURFACE('',#293,0.4);
#52=CYLINDRICAL_SURFACE('',#294,0.625);
#53=CYLINDRICAL_SURFACE('',#305,7.3);
#54=CYLINDRICAL_SURFACE('',#314,7.3);
#55=CYLINDRICAL_SURFACE('',#325,0.675);
#56=FACE_BOUND('',#73,.T.);
#57=FACE_BOUND('',#75,.T.);
#58=FACE_BOUND('',#79,.T.);
#59=FACE_BOUND('',#86,.T.);
#60=FACE_OUTER_BOUND('',#72,.T.);
#61=FACE_OUTER_BOUND('',#74,.T.);
#62=FACE_OUTER_BOUND('',#76,.T.);
#63=FACE_OUTER_BOUND('',#77,.T.);
#64=FACE_OUTER_BOUND('',#78,.T.);
#65=FACE_OUTER_BOUND('',#80,.T.);
#66=FACE_OUTER_BOUND('',#81,.T.);
#67=FACE_OUTER_BOUND('',#82,.T.);
#68=FACE_OUTER_BOUND('',#83,.T.);
#69=FACE_OUTER_BOUND('',#84,.T.);
#70=FACE_OUTER_BOUND('',#85,.T.);
#71=FACE_OUTER_BOUND('',#87,.T.);
#72=EDGE_LOOP('',(#160,#161));
#73=EDGE_LOOP('',(#162,#163));
#74=EDGE_LOOP('',(#164,#165));
#75=EDGE_LOOP('',(#166,#167));
#76=EDGE_LOOP('',(#168,#169,#170,#171,#172,#173));
#77=EDGE_LOOP('',(#174,#175,#176,#177,#178,#179));
#78=EDGE_LOOP('',(#180,#181));
#79=EDGE_LOOP('',(#182,#183));
#80=EDGE_LOOP('',(#184,#185,#186,#187,#188,#189,#190));
#81=EDGE_LOOP('',(#191,#192,#193,#194,#195,#196,#197,#198));
#82=EDGE_LOOP('',(#199,#200,#201,#202,#203,#204,#205,#206));
#83=EDGE_LOOP('',(#207,#208,#209,#210,#211,#212,#213,#214));
#84=EDGE_LOOP('',(#215,#216,#217,#218,#219,#220,#221));
#85=EDGE_LOOP('',(#222,#223));
#86=EDGE_LOOP('',(#224,#225));
#87=EDGE_LOOP('',(#226,#227,#228,#229,#230,#231));
#88=ELLIPSE('',#284,0.883883476483186,0.625);
#89=ELLIPSE('',#285,0.883883476483186,0.625);
#90=ELLIPSE('',#286,0.565685424949239,0.4);
#91=ELLIPSE('',#287,0.565685424949239,0.4);
#92=ELLIPSE('',#289,0.883883476483185,0.625);
#93=ELLIPSE('',#290,0.883883476483185,0.625);
#94=ELLIPSE('',#291,0.565685424949238,0.4);
#95=ELLIPSE('',#292,0.565685424949238,0.4);
#96=VERTEX_POINT('',#421);
#97=VERTEX_POINT('',#422);
#98=VERTEX_POINT('',#425);
#99=VERTEX_POINT('',#426);
#100=VERTEX_POINT('',#430);
#101=VERTEX_POINT('',#431);
#102=VERTEX_POINT('',#434);
#103=VERTEX_POINT('',#435);
#104=VERTEX_POINT('',#443);
#105=VERTEX_POINT('',#444);
#106=VERTEX_POINT('',#447);
#107=VERTEX_POINT('',#448);
#108=VERTEX_POINT('',#452);
#109=VERTEX_POINT('',#453);
#110=VERTEX_POINT('',#455);
#111=VERTEX_POINT('',#460);
#112=VERTEX_POINT('',#461);
#113=VERTEX_POINT('',#463);
#114=VERTEX_POINT('',#468);
#115=VERTEX_POINT('',#470);
#116=VERTEX_POINT('',#472);
#117=VERTEX_POINT('',#476);
#118=VERTEX_POINT('',#477);
#119=VERTEX_POINT('',#479);
#120=VERTEX_POINT('',#484);
#121=VERTEX_POINT('',#485);
#122=VERTEX_POINT('',#490);
#123=VERTEX_POINT('',#491);
#124=EDGE_CURVE('',#96,#97,#88,.T.);
#125=EDGE_CURVE('',#97,#96,#89,.T.);
#126=EDGE_CURVE('',#98,#99,#90,.T.);
#127=EDGE_CURVE('',#99,#98,#91,.T.);
#128=EDGE_CURVE('',#100,#101,#92,.T.);
#129=EDGE_CURVE('',#101,#100,#93,.T.);
#130=EDGE_CURVE('',#102,#103,#94,.T.);
#131=EDGE_CURVE('',#103,#102,#95,.T.);
#132=EDGE_CURVE('',#103,#99,#41,.T.);
#133=EDGE_CURVE('',#97,#101,#42,.T.);
#134=EDGE_CURVE('',#104,#105,#16,.T.);
#135=EDGE_CURVE('',#105,#104,#17,.T.);
#136=EDGE_CURVE('',#106,#107,#18,.T.);
#137=EDGE_CURVE('',#107,#106,#19,.T.);
#138=EDGE_CURVE('',#108,#109,#20,.T.);
#139=EDGE_CURVE('',#110,#108,#21,.T.);
#140=EDGE_CURVE('',#109,#110,#22,.T.);
#141=EDGE_CURVE('',#109,#105,#23,.T.);
#142=EDGE_CURVE('',#111,#112,#24,.T.);
#143=EDGE_CURVE('',#113,#111,#25,.T.);
#144=EDGE_CURVE('',#113,#110,#43,.T.);
#145=EDGE_CURVE('',#112,#113,#26,.T.);
#146=EDGE_CURVE('',#112,#114,#27,.T.);
#147=EDGE_CURVE('',#115,#114,#28,.T.);
#148=EDGE_CURVE('',#116,#115,#29,.T.);
#149=EDGE_CURVE('',#114,#116,#30,.T.);
#150=EDGE_CURVE('',#117,#118,#31,.T.);
#151=EDGE_CURVE('',#119,#117,#32,.T.);
#152=EDGE_CURVE('',#119,#116,#44,.T.);
#153=EDGE_CURVE('',#118,#119,#33,.T.);
#154=EDGE_CURVE('',#120,#121,#34,.T.);
#155=EDGE_CURVE('',#121,#120,#35,.T.);
#156=EDGE_CURVE('',#121,#118,#36,.T.);
#157=EDGE_CURVE('',#122,#123,#37,.T.);
#158=EDGE_CURVE('',#123,#122,#38,.T.);
#159=EDGE_CURVE('',#123,#107,#45,.T.);
#160=ORIENTED_EDGE('',*,*,#124,.F.);
#161=ORIENTED_EDGE('',*,*,#125,.F.);
#162=ORIENTED_EDGE('',*,*,#126,.F.);
#163=ORIENTED_EDGE('',*,*,#127,.F.);
#164=ORIENTED_EDGE('',*,*,#128,.F.);
#165=ORIENTED_EDGE('',*,*,#129,.F.);
#166=ORIENTED_EDGE('',*,*,#130,.F.);
#167=ORIENTED_EDGE('',*,*,#131,.F.);
#168=ORIENTED_EDGE('',*,*,#130,.T.);
#169=ORIENTED_EDGE('',*,*,#132,.T.);
#170=ORIENTED_EDGE('',*,*,#127,.T.);
#171=ORIENTED_EDGE('',*,*,#126,.T.);
#172=ORIENTED_EDGE('',*,*,#132,.F.);
#173=ORIENTED_EDGE('',*,*,#131,.T.);
#174=ORIENTED_EDGE('',*,*,#124,.T.);
#175=ORIENTED_EDGE('',*,*,#133,.T.);
#176=ORIENTED_EDGE('',*,*,#129,.T.);
#177=ORIENTED_EDGE('',*,*,#128,.T.);
#178=ORIENTED_EDGE('',*,*,#133,.F.);
#179=ORIENTED_EDGE('',*,*,#125,.T.);
#180=ORIENTED_EDGE('',*,*,#134,.F.);
#181=ORIENTED_EDGE('',*,*,#135,.F.);
#182=ORIENTED_EDGE('',*,*,#136,.T.);
#183=ORIENTED_EDGE('',*,*,#137,.T.);
#184=ORIENTED_EDGE('',*,*,#138,.F.);
#185=ORIENTED_EDGE('',*,*,#139,.F.);
#186=ORIENTED_EDGE('',*,*,#140,.F.);
#187=ORIENTED_EDGE('',*,*,#141,.T.);
#188=ORIENTED_EDGE('',*,*,#135,.T.);
#189=ORIENTED_EDGE('',*,*,#134,.T.);
#190=ORIENTED_EDGE('',*,*,#141,.F.);
#191=ORIENTED_EDGE('',*,*,#142,.F.);
#192=ORIENTED_EDGE('',*,*,#143,.F.);
#193=ORIENTED_EDGE('',*,*,#144,.T.);
#194=ORIENTED_EDGE('',*,*,#139,.T.);
#195=ORIENTED_EDGE('',*,*,#138,.T.);
#196=ORIENTED_EDGE('',*,*,#140,.T.);
#197=ORIENTED_EDGE('',*,*,#144,.F.);
#198=ORIENTED_EDGE('',*,*,#145,.F.);
#199=ORIENTED_EDGE('',*,*,#142,.T.);
#200=ORIENTED_EDGE('',*,*,#146,.T.);
#201=ORIENTED_EDGE('',*,*,#147,.F.);
#202=ORIENTED_EDGE('',*,*,#148,.F.);
#203=ORIENTED_EDGE('',*,*,#149,.F.);
#204=ORIENTED_EDGE('',*,*,#146,.F.);
#205=ORIENTED_EDGE('',*,*,#145,.T.);
#206=ORIENTED_EDGE('',*,*,#143,.T.);
#207=ORIENTED_EDGE('',*,*,#150,.F.);
#208=ORIENTED_EDGE('',*,*,#151,.F.);
#209=ORIENTED_EDGE('',*,*,#152,.T.);
#210=ORIENTED_EDGE('',*,*,#148,.T.);
#211=ORIENTED_EDGE('',*,*,#147,.T.);
#212=ORIENTED_EDGE('',*,*,#149,.T.);
#213=ORIENTED_EDGE('',*,*,#152,.F.);
#214=ORIENTED_EDGE('',*,*,#153,.F.);
#215=ORIENTED_EDGE('',*,*,#154,.F.);
#216=ORIENTED_EDGE('',*,*,#155,.F.);
#217=ORIENTED_EDGE('',*,*,#156,.T.);
#218=ORIENTED_EDGE('',*,*,#153,.T.);
#219=ORIENTED_EDGE('',*,*,#151,.T.);
#220=ORIENTED_EDGE('',*,*,#150,.T.);
#221=ORIENTED_EDGE('',*,*,#156,.F.);
#222=ORIENTED_EDGE('',*,*,#154,.T.);
#223=ORIENTED_EDGE('',*,*,#155,.T.);
#224=ORIENTED_EDGE('',*,*,#157,.F.);
#225=ORIENTED_EDGE('',*,*,#158,.F.);
#226=ORIENTED_EDGE('',*,*,#157,.T.);
#227=ORIENTED_EDGE('',*,*,#159,.T.);
#228=ORIENTED_EDGE('',*,*,#136,.F.);
#229=ORIENTED_EDGE('',*,*,#137,.F.);
#230=ORIENTED_EDGE('',*,*,#159,.F.);
#231=ORIENTED_EDGE('',*,*,#158,.T.);
#232=PLANE('',#283);
#233=PLANE('',#288);
#234=PLANE('',#295);
#235=PLANE('',#322);
#236=STYLED_ITEM('',(#516),#250);
#237=STYLED_ITEM('',(#516),#251);
#238=STYLED_ITEM('',(#516),#252);
#239=STYLED_ITEM('',(#516),#253);
#240=STYLED_ITEM('',(#515),#39);
#241=STYLED_ITEM('',(#517),#254);
#242=STYLED_ITEM('',(#517),#255);
#243=STYLED_ITEM('',(#517),#256);
#244=STYLED_ITEM('',(#517),#257);
#245=STYLED_ITEM('',(#517),#258);
#246=STYLED_ITEM('',(#517),#259);
#247=STYLED_ITEM('',(#517),#260);
#248=STYLED_ITEM('',(#517),#261);
#249=STYLED_ITEM('',(#515),#40);
#250=ADVANCED_FACE('',(#60,#56),#232,.F.);
#251=ADVANCED_FACE('',(#61,#57),#233,.F.);
#252=ADVANCED_FACE('',(#62),#51,.F.);
#253=ADVANCED_FACE('',(#63),#52,.T.);
#254=ADVANCED_FACE('',(#64,#58),#234,.T.);
#255=ADVANCED_FACE('',(#65),#13,.T.);
#256=ADVANCED_FACE('',(#66),#53,.T.);
#257=ADVANCED_FACE('',(#67),#14,.F.);
#258=ADVANCED_FACE('',(#68),#54,.T.);
#259=ADVANCED_FACE('',(#69),#15,.T.);
#260=ADVANCED_FACE('',(#70,#59),#235,.T.);
#261=ADVANCED_FACE('',(#71),#55,.F.);
#262=CLOSED_SHELL('',(#250,#251,#252,#253));
#263=CLOSED_SHELL('',(#254,#255,#256,#257,#258,#259,#260,#261));
#264=DERIVED_UNIT_ELEMENT(#266,1.);
#265=DERIVED_UNIT_ELEMENT(#501,3.);
#266=(
MASS_UNIT()
NAMED_UNIT(*)
SI_UNIT($,.GRAM.)
);
#267=DERIVED_UNIT((#264,#265));
#268=MEASURE_REPRESENTATION_ITEM('density measure',
POSITIVE_RATIO_MEASURE(1.),#267);
#269=PROPERTY_DEFINITION_REPRESENTATION(#274,#271);
#270=PROPERTY_DEFINITION_REPRESENTATION(#275,#272);
#271=REPRESENTATION('material name',(#273),#498);
#272=REPRESENTATION('density',(#268),#498);
#273=DESCRIPTIVE_REPRESENTATION_ITEM('Generic','Generic');
#274=PROPERTY_DEFINITION('material property','material name',#508);
#275=PROPERTY_DEFINITION('material property','density of part',#508);
#276=DATE_TIME_ROLE('creation_date');
#277=APPLIED_DATE_AND_TIME_ASSIGNMENT(#278,#276,(#508));
#278=DATE_AND_TIME(#279,#280);
#279=CALENDAR_DATE(2019,12,12);
#280=LOCAL_TIME(11,34,53.,#281);
#281=COORDINATED_UNIVERSAL_TIME_OFFSET(0,0,.BEHIND.);
#282=AXIS2_PLACEMENT_3D('placement',#419,#326,#327);
#283=AXIS2_PLACEMENT_3D('',#420,#328,#329);
#284=AXIS2_PLACEMENT_3D('',#423,#330,#331);
#285=AXIS2_PLACEMENT_3D('',#424,#332,#333);
#286=AXIS2_PLACEMENT_3D('',#427,#334,#335);
#287=AXIS2_PLACEMENT_3D('',#428,#336,#337);
#288=AXIS2_PLACEMENT_3D('',#429,#338,#339);
#289=AXIS2_PLACEMENT_3D('',#432,#340,#341);
#290=AXIS2_PLACEMENT_3D('',#433,#342,#343);
#291=AXIS2_PLACEMENT_3D('',#436,#344,#345);
#292=AXIS2_PLACEMENT_3D('',#437,#346,#347);
#293=AXIS2_PLACEMENT_3D('',#438,#348,#349);
#294=AXIS2_PLACEMENT_3D('',#440,#351,#352);
#295=AXIS2_PLACEMENT_3D('',#442,#354,#355);
#296=AXIS2_PLACEMENT_3D('',#445,#356,#357);
#297=AXIS2_PLACEMENT_3D('',#446,#358,#359);
#298=AXIS2_PLACEMENT_3D('',#449,#360,#361);
#299=AXIS2_PLACEMENT_3D('',#450,#362,#363);
#300=AXIS2_PLACEMENT_3D('',#451,#364,#365);
#301=AXIS2_PLACEMENT_3D('',#454,#366,#367);
#302=AXIS2_PLACEMENT_3D('',#456,#368,#369);
#303=AXIS2_PLACEMENT_3D('',#457,#370,#371);
#304=AXIS2_PLACEMENT_3D('',#458,#372,#373);
#305=AXIS2_PLACEMENT_3D('',#459,#374,#375);
#306=AXIS2_PLACEMENT_3D('',#462,#376,#377);
#307=AXIS2_PLACEMENT_3D('',#464,#378,#379);
#308=AXIS2_PLACEMENT_3D('',#466,#381,#382);
#309=AXIS2_PLACEMENT_3D('',#467,#383,#384);
#310=AXIS2_PLACEMENT_3D('',#469,#385,#386);
#311=AXIS2_PLACEMENT_3D('',#471,#387,#388);
#312=AXIS2_PLACEMENT_3D('',#473,#389,#390);
#313=AXIS2_PLACEMENT_3D('',#474,#391,#392);
#314=AXIS2_PLACEMENT_3D('',#475,#393,#394);
#315=AXIS2_PLACEMENT_3D('',#478,#395,#396);
#316=AXIS2_PLACEMENT_3D('',#480,#397,#398);
#317=AXIS2_PLACEMENT_3D('',#482,#400,#401);
#318=AXIS2_PLACEMENT_3D('',#483,#402,#403);
#319=AXIS2_PLACEMENT_3D('',#486,#404,#405);
#320=AXIS2_PLACEMENT_3D('',#487,#406,#407);
#321=AXIS2_PLACEMENT_3D('',#488,#408,#409);
#322=AXIS2_PLACEMENT_3D('',#489,#410,#411);
#323=AXIS2_PLACEMENT_3D('',#492,#412,#413);
#324=AXIS2_PLACEMENT_3D('',#493,#414,#415);
#325=AXIS2_PLACEMENT_3D('',#494,#416,#417);
#326=DIRECTION('axis',(0.,0.,1.));
#327=DIRECTION('refdir',(1.,0.,0.));
#328=DIRECTION('center_axis',(0.,0.707106781186549,-0.707106781186546));
#329=DIRECTION('ref_axis',(-1.,0.,0.));
#330=DIRECTION('center_axis',(0.,0.707106781186549,-0.707106781186546));
#331=DIRECTION('ref_axis',(0.,-0.707106781186546,-0.707106781186549));
#332=DIRECTION('center_axis',(0.,0.707106781186549,-0.707106781186546));
#333=DIRECTION('ref_axis',(0.,-0.707106781186546,-0.707106781186549));
#334=DIRECTION('center_axis',(0.,-0.707106781186549,0.707106781186546));
#335=DIRECTION('ref_axis',(0.,-0.707106781186546,-0.707106781186549));
#336=DIRECTION('center_axis',(0.,-0.707106781186549,0.707106781186546));
#337=DIRECTION('ref_axis',(0.,-0.707106781186546,-0.707106781186549));
#338=DIRECTION('center_axis',(0.,-0.707106781186548,0.707106781186547));
#339=DIRECTION('ref_axis',(1.,0.,0.));
#340=DIRECTION('center_axis',(0.,-0.707106781186548,0.707106781186547));
#341=DIRECTION('ref_axis',(0.,-0.707106781186547,-0.707106781186548));
#342=DIRECTION('center_axis',(0.,-0.707106781186548,0.707106781186547));
#343=DIRECTION('ref_axis',(0.,-0.707106781186547,-0.707106781186548));
#344=DIRECTION('center_axis',(0.,0.707106781186548,-0.707106781186547));
#345=DIRECTION('ref_axis',(0.,-0.707106781186547,-0.707106781186548));
#346=DIRECTION('center_axis',(0.,0.707106781186548,-0.707106781186547));
#347=DIRECTION('ref_axis',(0.,-0.707106781186547,-0.707106781186548));
#348=DIRECTION('center_axis',(0.,0.,1.));
#349=DIRECTION('ref_axis',(-1.,0.,0.));
#350=DIRECTION('',(0.,0.,1.));
#351=DIRECTION('center_axis',(0.,0.,1.));
#352=DIRECTION('ref_axis',(-1.,0.,0.));
#353=DIRECTION('',(0.,0.,-1.));
#354=DIRECTION('center_axis',(-1.22460635382238E-16,7.39557098644699E-32,
1.));
#355=DIRECTION('ref_axis',(1.,8.48891026925726E-32,1.22460635382238E-16));
#356=DIRECTION('center_axis',(1.22460635382238E-16,-7.39557098644699E-32,
-1.));
#357=DIRECTION('ref_axis',(-8.48891026925726E-32,1.,-7.39557098644699E-32));
#358=DIRECTION('center_axis',(1.22460635382238E-16,-7.39557098644699E-32,
-1.));
#359=DIRECTION('ref_axis',(-8.48891026925726E-32,1.,-7.39557098644699E-32));
#360=DIRECTION('center_axis',(1.22460635382238E-16,-7.39557098644699E-32,
-1.));
#361=DIRECTION('ref_axis',(-8.48891026925726E-32,1.,-7.39557098644699E-32));
#362=DIRECTION('center_axis',(1.22460635382238E-16,-7.39557098644699E-32,
-1.));
#363=DIRECTION('ref_axis',(-8.48891026925726E-32,1.,-7.39557098644699E-32));
#364=DIRECTION('center_axis',(1.22460635382238E-16,-7.39557098644699E-32,
-1.));
#365=DIRECTION('ref_axis',(-1.,0.,-1.2166827667125E-16));
#366=DIRECTION('center_axis',(1.22460635382238E-16,-7.39557098644699E-32,
-1.));
#367=DIRECTION('ref_axis',(-8.48891026925726E-32,1.,-7.39557098644699E-32));
#368=DIRECTION('center_axis',(1.22460635382238E-16,-7.39557098644699E-32,
-1.));
#369=DIRECTION('ref_axis',(-8.48891026925726E-32,1.,-7.39557098644699E-32));
#370=DIRECTION('center_axis',(1.22460635382238E-16,-7.39557098644699E-32,
-1.));
#371=DIRECTION('ref_axis',(-8.48891026925726E-32,1.,-7.39557098644699E-32));
#372=DIRECTION('center_axis',(-1.52085345839063E-16,-1.,5.53312417806909E-32));
#373=DIRECTION('ref_axis',(1.,-1.52085345839063E-16,1.52085345839063E-16));
#374=DIRECTION('center_axis',(1.22460635382238E-16,-7.39557098644699E-32,
-1.));
#375=DIRECTION('ref_axis',(-8.48891026925726E-32,1.,-7.39557098644699E-32));
#376=DIRECTION('center_axis',(1.22460635382238E-16,-7.39557098644699E-32,
-1.));
#377=DIRECTION('ref_axis',(-8.48891026925726E-32,1.,-7.39557098644699E-32));
#378=DIRECTION('center_axis',(1.22460635382238E-16,-7.39557098644699E-32,
-1.));
#379=DIRECTION('ref_axis',(-8.48891026925726E-32,1.,-7.39557098644699E-32));
#380=DIRECTION('',(-1.22460635382238E-16,7.39557098644699E-32,1.));
#381=DIRECTION('center_axis',(1.22460635382238E-16,-7.39557098644699E-32,
-1.));
#382=DIRECTION('ref_axis',(-8.48891026925726E-32,1.,-7.39557098644699E-32));
#383=DIRECTION('center_axis',(1.22460635382238E-16,-7.39557098644699E-32,
-1.));
#384=DIRECTION('ref_axis',(-1.,0.,-1.27724772744487E-16));
#385=DIRECTION('center_axis',(-9.8249825188067E-17,-1.,6.19239738457454E-32));
#386=DIRECTION('ref_axis',(1.,-9.8249825188067E-17,1.22812281485084E-16));
#387=DIRECTION('center_axis',(1.22460635382238E-16,-7.39557098644699E-32,
-1.));
#388=DIRECTION('ref_axis',(-8.48891026925726E-32,1.,-7.39557098644699E-32));
#389=DIRECTION('center_axis',(1.22460635382238E-16,-7.39557098644699E-32,
-1.));
#390=DIRECTION('ref_axis',(-8.48891026925726E-32,1.,-7.39557098644699E-32));
#391=DIRECTION('center_axis',(1.22460635382238E-16,-7.39557098644699E-32,
-1.));
#392=DIRECTION('ref_axis',(-8.48891026925726E-32,1.,-7.39557098644699E-32));
#393=DIRECTION('center_axis',(1.22460635382238E-16,-7.39557098644699E-32,
-1.));
#394=DIRECTION('ref_axis',(-8.48891026925726E-32,1.,-7.39557098644699E-32));
#395=DIRECTION('center_axis',(1.22460635382238E-16,-7.39557098644699E-32,
-1.));
#396=DIRECTION('ref_axis',(-8.48891026925726E-32,1.,-7.39557098644699E-32));
#397=DIRECTION('center_axis',(1.22460635382238E-16,-7.39557098644699E-32,
-1.));
#398=DIRECTION('ref_axis',(-8.48891026925726E-32,1.,-7.39557098644699E-32));
#399=DIRECTION('',(-1.22460635382238E-16,7.39557098644699E-32,1.));
#400=DIRECTION('center_axis',(1.22460635382238E-16,-7.39557098644699E-32,
-1.));
#401=DIRECTION('ref_axis',(-8.48891026925726E-32,1.,-7.39557098644699E-32));
#402=DIRECTION('center_axis',(1.22460635382238E-16,-7.39557098644699E-32,
-1.));
#403=DIRECTION('ref_axis',(-1.,0.,-1.2166827667125E-16));
#404=DIRECTION('center_axis',(1.22460635382238E-16,-7.39557098644699E-32,
-1.));
#405=DIRECTION('ref_axis',(-8.48891026925726E-32,1.,-7.39557098644699E-32));
#406=DIRECTION('center_axis',(1.22460635382238E-16,-7.39557098644699E-32,
-1.));
#407=DIRECTION('ref_axis',(-8.48891026925726E-32,1.,-7.39557098644699E-32));
#408=DIRECTION('center_axis',(-1.52085345839063E-16,-1.,5.53312417806909E-32));
#409=DIRECTION('ref_axis',(1.,-1.52085345839063E-16,1.52085345839063E-16));
#410=DIRECTION('center_axis',(1.22460635382238E-16,-7.39557098644699E-32,
-1.));
#411=DIRECTION('ref_axis',(-1.,-8.48891026925726E-32,-1.22460635382238E-16));
#412=DIRECTION('center_axis',(1.22460635382238E-16,-7.39557098644699E-32,
-1.));
#413=DIRECTION('ref_axis',(-8.48891026925726E-32,1.,-7.39557098644699E-32));
#414=DIRECTION('center_axis',(1.22460635382238E-16,-7.39557098644699E-32,
-1.));
#415=DIRECTION('ref_axis',(-8.48891026925726E-32,1.,-7.39557098644699E-32));
#416=DIRECTION('center_axis',(1.22460635382238E-16,-7.39557098644699E-32,
-1.));
#417=DIRECTION('ref_axis',(-8.48891026925726E-32,1.,-7.39557098644699E-32));
#418=DIRECTION('',(-1.22460635382238E-16,7.39557098644699E-32,1.));
#419=CARTESIAN_POINT('',(0.,0.,0.));
#420=CARTESIAN_POINT('Origin',(-10.1156067856819,5.51532374883602,43.7206928576057));
#421=CARTESIAN_POINT('',(-10.1156067856819,7.29463089123035,45.5));
#422=CARTESIAN_POINT('',(-9.4906067856819,6.66963089123035,44.875));
#423=CARTESIAN_POINT('Origin',(-10.1156067856819,6.66963089123035,44.875));
#424=CARTESIAN_POINT('Origin',(-10.1156067856819,6.66963089123035,44.875));
#425=CARTESIAN_POINT('',(-10.1156067856819,7.06963089123035,45.275));
#426=CARTESIAN_POINT('',(-9.7156067856819,6.66963089123035,44.875));
#427=CARTESIAN_POINT('Origin',(-10.1156067856819,6.66963089123035,44.875));
#428=CARTESIAN_POINT('Origin',(-10.1156067856819,6.66963089123035,44.875));
#429=CARTESIAN_POINT('Origin',(-10.1156067856819,7.40035865383056,-44.1442722373998));
#430=CARTESIAN_POINT('',(-10.1156067856819,6.04463089123035,-45.5));
#431=CARTESIAN_POINT('',(-9.4906067856819,6.66963089123035,-44.875));
#432=CARTESIAN_POINT('Origin',(-10.1156067856819,6.66963089123035,-44.875));
#433=CARTESIAN_POINT('Origin',(-10.1156067856819,6.66963089123035,-44.875));
#434=CARTESIAN_POINT('',(-10.1156067856819,7.06963089123035,-44.475));
#435=CARTESIAN_POINT('',(-9.7156067856819,6.66963089123035,-44.875));
#436=CARTESIAN_POINT('Origin',(-10.1156067856819,6.66963089123035,-44.875));
#437=CARTESIAN_POINT('Origin',(-10.1156067856819,6.66963089123035,-44.875));
#438=CARTESIAN_POINT('Origin',(-10.1156067856819,6.66963089123035,-45.5));
#439=CARTESIAN_POINT('',(-9.7156067856819,6.66963089123035,-45.5));
#440=CARTESIAN_POINT('Origin',(-10.1156067856819,6.66963089123035,-45.5));
#441=CARTESIAN_POINT('',(-9.4906067856819,6.66963089123035,-45.5));
#442=CARTESIAN_POINT('Origin',(-10.1156067856819,10.1571308912303,4.5));
#443=CARTESIAN_POINT('',(-10.1156067856819,12.9696308912303,4.5));
#444=CARTESIAN_POINT('',(-3.8156067856819,6.66963089123034,4.5));
#445=CARTESIAN_POINT('Origin',(-10.1156067856819,6.66963089123035,4.5));
#446=CARTESIAN_POINT('Origin',(-10.1156067856819,6.66963089123035,4.5));
#447=CARTESIAN_POINT('',(-10.1156067856819,7.34463089123035,4.5));
#448=CARTESIAN_POINT('',(-10.1156067856819,5.99463089123035,4.5));
#449=CARTESIAN_POINT('Origin',(-10.1156067856819,6.66963089123035,4.5));
#450=CARTESIAN_POINT('Origin',(-10.1156067856819,6.66963089123035,4.5));
#451=CARTESIAN_POINT('Origin',(-10.1156067856819,6.66963089123035,3.5));
#452=CARTESIAN_POINT('',(-10.1156067856819,13.9696308912303,3.5));
#453=CARTESIAN_POINT('',(-2.8156067856819,6.66963089123034,3.5));
#454=CARTESIAN_POINT('Origin',(-10.1156067856819,6.66963089123035,3.5));
#455=CARTESIAN_POINT('',(-10.1156067856819,-0.630369108769653,3.5));
#456=CARTESIAN_POINT('Origin',(-10.1156067856819,6.66963089123035,3.5));
#457=CARTESIAN_POINT('Origin',(-10.1156067856819,6.66963089123035,3.5));
#458=CARTESIAN_POINT('Origin',(-3.8156067856819,6.66963089123035,3.5));
#459=CARTESIAN_POINT('Origin',(-10.1156067856819,6.66963089123035,3.));
#460=CARTESIAN_POINT('',(-10.1156067856819,13.9696308912303,2.5));
#461=CARTESIAN_POINT('',(-2.8156067856819,6.66963089123034,2.5));
#462=CARTESIAN_POINT('Origin',(-10.1156067856819,6.66963089123035,2.5));
#463=CARTESIAN_POINT('',(-10.1156067856819,-0.630369108769653,2.5));
#464=CARTESIAN_POINT('Origin',(-10.1156067856819,6.66963089123035,2.5));
#465=CARTESIAN_POINT('',(-10.1156067856819,-0.630369108769653,3.));
#466=CARTESIAN_POINT('Origin',(-10.1156067856819,6.66963089123035,2.5));
#467=CARTESIAN_POINT('Origin',(-10.1156067856819,6.66963089123035,0.500000000000002));
#468=CARTESIAN_POINT('',(-2.8156067856819,6.66963089123034,-1.5));
#469=CARTESIAN_POINT('Origin',(-1.3156067856819,6.66963089123035,0.500000000000003));
#470=CARTESIAN_POINT('',(-10.1156067856819,13.9696308912303,-1.5));
#471=CARTESIAN_POINT('Origin',(-10.1156067856819,6.66963089123035,-1.5));
#472=CARTESIAN_POINT('',(-10.1156067856819,-0.630369108769653,-1.5));
#473=CARTESIAN_POINT('Origin',(-10.1156067856819,6.66963089123035,-1.5));
#474=CARTESIAN_POINT('Origin',(-10.1156067856819,6.66963089123035,-1.5));
#475=CARTESIAN_POINT('Origin',(-10.1156067856819,6.66963089123035,-2.));
#476=CARTESIAN_POINT('',(-10.1156067856819,13.9696308912303,-2.5));
#477=CARTESIAN_POINT('',(-2.8156067856819,6.66963089123034,-2.5));
#478=CARTESIAN_POINT('Origin',(-10.1156067856819,6.66963089123035,-2.5));
#479=CARTESIAN_POINT('',(-10.1156067856819,-0.630369108769653,-2.5));
#480=CARTESIAN_POINT('Origin',(-10.1156067856819,6.66963089123035,-2.5));
#481=CARTESIAN_POINT('',(-10.1156067856819,-0.630369108769653,-2.));
#482=CARTESIAN_POINT('Origin',(-10.1156067856819,6.66963089123035,-2.5));
#483=CARTESIAN_POINT('Origin',(-10.1156067856819,6.66963089123035,-2.5));
#484=CARTESIAN_POINT('',(-10.1156067856819,12.9696308912303,-3.5));
#485=CARTESIAN_POINT('',(-3.8156067856819,6.66963089123034,-3.5));
#486=CARTESIAN_POINT('Origin',(-10.1156067856819,6.66963089123035,-3.5));
#487=CARTESIAN_POINT('Origin',(-10.1156067856819,6.66963089123035,-3.5));
#488=CARTESIAN_POINT('Origin',(-3.8156067856819,6.66963089123035,-2.5));
#489=CARTESIAN_POINT('Origin',(-10.1156067856819,10.1571308912303,-3.5));
#490=CARTESIAN_POINT('',(-10.1156067856819,7.34463089123035,-3.5));
#491=CARTESIAN_POINT('',(-10.1156067856819,5.99463089123035,-3.5));
#492=CARTESIAN_POINT('Origin',(-10.1156067856819,6.66963089123035,-3.5));
#493=CARTESIAN_POINT('Origin',(-10.1156067856819,6.66963089123035,-3.5));
#494=CARTESIAN_POINT('Origin',(-10.1156067856819,6.66963089123035,0.5));
#495=CARTESIAN_POINT('',(-10.1156067856819,5.99463089123035,0.5));
#496=UNCERTAINTY_MEASURE_WITH_UNIT(LENGTH_MEASURE(0.01),#500,
'DISTANCE_ACCURACY_VALUE',
'Maximum model space distance between geometric entities at asserted c
onnectivities');
#497=UNCERTAINTY_MEASURE_WITH_UNIT(LENGTH_MEASURE(0.01),#500,
'DISTANCE_ACCURACY_VALUE',
'Maximum model space distance between geometric entities at asserted c
onnectivities');
#498=(
GEOMETRIC_REPRESENTATION_CONTEXT(3)
GLOBAL_UNCERTAINTY_ASSIGNED_CONTEXT((#496))
GLOBAL_UNIT_ASSIGNED_CONTEXT((#500,#502,#503))
REPRESENTATION_CONTEXT('','3D')
);
#499=(
GEOMETRIC_REPRESENTATION_CONTEXT(3)
GLOBAL_UNCERTAINTY_ASSIGNED_CONTEXT((#497))
GLOBAL_UNIT_ASSIGNED_CONTEXT((#500,#502,#503))
REPRESENTATION_CONTEXT('','3D')
);
#500=(
LENGTH_UNIT()
NAMED_UNIT(*)
SI_UNIT(.MILLI.,.METRE.)
);
#501=(
LENGTH_UNIT()
NAMED_UNIT(*)
SI_UNIT(.CENTI.,.METRE.)
);
#502=(
NAMED_UNIT(*)
PLANE_ANGLE_UNIT()
SI_UNIT($,.RADIAN.)
);
#503=(
NAMED_UNIT(*)
SI_UNIT($,.STERADIAN.)
SOLID_ANGLE_UNIT()
);
#504=SHAPE_DEFINITION_REPRESENTATION(#505,#506);
#505=PRODUCT_DEFINITION_SHAPE('',$,#508);
#506=SHAPE_REPRESENTATION('',(#282),#498);
#507=PRODUCT_DEFINITION_CONTEXT('part definition',#512,'design');
#508=PRODUCT_DEFINITION('900054','900054',#509,#507);
#509=PRODUCT_DEFINITION_FORMATION('A',$,#514);
#510=PRODUCT_RELATED_PRODUCT_CATEGORY('900054','900054',(#514));
#511=APPLICATION_PROTOCOL_DEFINITION('international standard',
'automotive_design',2009,#512);
#512=APPLICATION_CONTEXT(
'Core Data for Automotive Mechanical Design Process');
#513=PRODUCT_CONTEXT('part definition',#512,'mechanical');
#514=PRODUCT('900054','900054',$,(#513));
#515=PRESENTATION_STYLE_ASSIGNMENT((#518));
#516=PRESENTATION_STYLE_ASSIGNMENT((#519));
#517=PRESENTATION_STYLE_ASSIGNMENT((#520));
#518=SURFACE_STYLE_USAGE(.BOTH.,#527);
#519=SURFACE_STYLE_USAGE(.BOTH.,#528);
#520=SURFACE_STYLE_USAGE(.BOTH.,#529);
#521=SURFACE_STYLE_RENDERING_WITH_PROPERTIES($,#539,(#524));
#522=SURFACE_STYLE_RENDERING_WITH_PROPERTIES($,#540,(#525));
#523=SURFACE_STYLE_RENDERING_WITH_PROPERTIES($,#541,(#526));
#524=SURFACE_STYLE_TRANSPARENT(0.);
#525=SURFACE_STYLE_TRANSPARENT(0.);
#526=SURFACE_STYLE_TRANSPARENT(0.);
#527=SURFACE_SIDE_STYLE('',(#530,#521));
#528=SURFACE_SIDE_STYLE('',(#531,#522));
#529=SURFACE_SIDE_STYLE('',(#532,#523));
#530=SURFACE_STYLE_FILL_AREA(#533);
#531=SURFACE_STYLE_FILL_AREA(#534);
#532=SURFACE_STYLE_FILL_AREA(#535);
#533=FILL_AREA_STYLE('',(#536));
#534=FILL_AREA_STYLE('',(#537));
#535=FILL_AREA_STYLE('',(#538));
#536=FILL_AREA_STYLE_COLOUR('',#539);
#537=FILL_AREA_STYLE_COLOUR('',#540);
#538=FILL_AREA_STYLE_COLOUR('',#541);
#539=COLOUR_RGB('',0.749019607843137,0.749019607843137,0.749019607843137);
#540=COLOUR_RGB('',1.,1.,1.);
#541=COLOUR_RGB('',0.956862745098039,0.956862745098039,0.956862745098039);
ENDSEC;
END-ISO-10303-21;
